ISO-10303-21;
HEADER;
FILE_DESCRIPTION (( 'STEP AP203' ),
    '1' );
FILE_NAME ('BK7-LNPBSC-20-633.STEP',
    '2021-01-05T02:01:37',
    ( '' ),
    ( '' ),
    'SwSTEP 2.0',
    'SolidWorks 2020',
    '' );
FILE_SCHEMA (( 'CONFIG_CONTROL_DESIGN' ));
ENDSEC;

DATA;
#1 = APPLICATION_PROTOCOL_DEFINITION ( 'international standard', 'config_control_design', 1994, #267 ) ;
#2 = DIRECTION ( 'NONE',  ( 2.220446049250313081E-16, 1.000000000000000000, 0.000000000000000000 ) ) ;
#3 = VECTOR ( 'NONE', #214, 1000.000000000000000 ) ;
#4 = DIRECTION ( 'NONE',  ( 0.000000000000000000, 0.000000000000000000, 1.000000000000000000 ) ) ;
#5 = ADVANCED_FACE ( 'NONE', ( #180 ), #25, .T. ) ;
#6 = VERTEX_POINT ( 'NONE', #301 ) ;
#7 = VERTEX_POINT ( 'NONE', #71 ) ;
#8 = VECTOR ( 'NONE', #118, 1000.000000000000000 ) ;
#9 = EDGE_CURVE ( 'NONE', #6, #282, #173, .T. ) ;
#10 = ORIENTED_EDGE ( 'NONE', *, *, #17, .F. ) ;
#11 = ORIENTED_EDGE ( 'NONE', *, *, #9, .T. ) ;
#12 = DIRECTION ( 'NONE',  ( 0.000000000000000000, -0.000000000000000000, 1.000000000000000000 ) ) ;
#13 = LINE ( 'NONE', #264, #114 ) ;
#14 = LINE ( 'NONE', #19, #8 ) ;
#15 = CC_DESIGN_DATE_AND_TIME_ASSIGNMENT ( #202, #28, ( #241 ) ) ;
#16 = LINE ( 'NONE', #89, #258 ) ;
#17 = EDGE_CURVE ( 'NONE', #86, #7, #47, .T. ) ;
#18 = DIRECTION ( 'NONE',  ( 1.000000000000000000, 0.000000000000000000, 0.000000000000000000 ) ) ;
#19 = CARTESIAN_POINT ( 'NONE',  ( 10.00000000000000000, 10.00000000000000000, -10.00000000000000000 ) ) ;
#20 = CARTESIAN_POINT ( 'NONE',  ( 10.00000000000000178, 9.999999999999998224, 10.00000000000000000 ) ) ;
#21 = PERSON_AND_ORGANIZATION ( #159, #316 ) ;
#22 = VECTOR ( 'NONE', #129, 1000.000000000000000 ) ;
#23 = CARTESIAN_POINT ( 'NONE',  ( -10.00000000000000178, -9.999999999999996447, -10.00000000000000000 ) ) ;
#24 =( NAMED_UNIT ( * ) SI_UNIT ( $, .STERADIAN. ) SOLID_ANGLE_UNIT ( ) );
#25 = PLANE ( 'NONE',  #287 ) ;
#26 = PERSON_AND_ORGANIZATION_ROLE ( 'design_owner' ) ;
#27 = DIRECTION ( 'NONE',  ( 0.000000000000000000, 1.000000000000000000, 0.000000000000000000 ) ) ;
#28 = DATE_TIME_ROLE ( 'classification_date' ) ;
#29 = CARTESIAN_POINT ( 'NONE',  ( 0.000000000000000000, 0.000000000000000000, 0.000000000000000000 ) ) ;
#30 = LOCAL_TIME ( 10, 1, 37.00000000000000000, #295 ) ;
#31 = DIRECTION ( 'NONE',  ( 1.000000000000000000, 0.000000000000000000, 0.000000000000000000 ) ) ;
#32 = APPLICATION_CONTEXT ( 'configuration controlled 3d designs of mechanical parts and assemblies' ) ;
#33 = EDGE_LOOP ( 'NONE', ( #183, #59, #111, #176 ) ) ;
#34 = VERTEX_POINT ( 'NONE', #246 ) ;
#35 = ORIENTED_EDGE ( 'NONE', *, *, #62, .F. ) ;
#36 = VECTOR ( 'NONE', #240, 1000.000000000000000 ) ;
#37 = CC_DESIGN_PERSON_AND_ORGANIZATION_ASSIGNMENT ( #276, #274, ( #305 ) ) ;
#38 = VERTEX_POINT ( 'NONE', #97 ) ;
#39 = DIRECTION ( 'NONE',  ( 1.000000000000000000, 0.000000000000000000, 0.000000000000000000 ) ) ;
#40 = VECTOR ( 'NONE', #52, 1000.000000000000000 ) ;
#41 = PLANE ( 'NONE',  #96 ) ;
#42 = FACE_OUTER_BOUND ( 'NONE', #162, .T. ) ;
#43 = CARTESIAN_POINT ( 'NONE',  ( 10.00000000000000000, 10.00000000000000000, 10.00000000000000000 ) ) ;
#44 = PLANE ( 'NONE',  #309 ) ;
#45 = VECTOR ( 'NONE', #257, 1000.000000000000000 ) ;
#46 = DIRECTION ( 'NONE',  ( 0.000000000000000000, 0.000000000000000000, 1.000000000000000000 ) ) ;
#47 = LINE ( 'NONE', #23, #121 ) ;
#48 = CALENDAR_DATE ( 2021, 5, 1 ) ;
#49 = APPROVAL_PERSON_ORGANIZATION ( #109, #119, #156 ) ;
#50 = CARTESIAN_POINT ( 'NONE',  ( 10.00000000000000178, 9.999999999999998224, -10.00000000000000000 ) ) ;
#51 = APPLICATION_PROTOCOL_DEFINITION ( 'international standard', 'config_control_design', 1994, #32 ) ;
#52 = DIRECTION ( 'NONE',  ( -0.000000000000000000, -0.000000000000000000, -1.000000000000000000 ) ) ;
#53 = ADVANCED_FACE ( 'NONE', ( #244 ), #127, .F. ) ;
#54 =( LENGTH_UNIT ( ) NAMED_UNIT ( * ) SI_UNIT ( .MILLI., .METRE. ) );
#55 = CLOSED_SHELL ( 'NONE', ( #234, #269, #291, #5, #133 ) ) ;
#56 = EDGE_LOOP ( 'NONE', ( #308, #268, #112, #11 ) ) ;
#57 = VERTEX_POINT ( 'NONE', #124 ) ;
#58 = EDGE_CURVE ( 'NONE', #132, #280, #105, .T. ) ;
#59 = ORIENTED_EDGE ( 'NONE', *, *, #188, .F. ) ;
#60 = EDGE_LOOP ( 'NONE', ( #209, #190, #35, #275 ) ) ;
#61 = EDGE_CURVE ( 'NONE', #280, #38, #201, .T. ) ;
#62 = EDGE_CURVE ( 'NONE', #83, #6, #153, .T. ) ;
#63 = LINE ( 'NONE', #164, #45 ) ;
#64 = DIRECTION ( 'NONE',  ( 0.000000000000000000, 0.000000000000000000, 1.000000000000000000 ) ) ;
#65 = VECTOR ( 'NONE', #222, 1000.000000000000000 ) ;
#66 = PLANE ( 'NONE',  #135 ) ;
#67 = APPROVAL ( #152, 'UNSPECIFIED' ) ;
#68 = CARTESIAN_POINT ( 'NONE',  ( 10.00000000000000178, 9.999999999999998224, 10.00000000000000000 ) ) ;
#69 = CARTESIAN_POINT ( 'NONE',  ( 10.00000000000000000, 10.00000000000000000, 10.00000000000000000 ) ) ;
#70 = VECTOR ( 'NONE', #74, 1000.000000000000000 ) ;
#71 = CARTESIAN_POINT ( 'NONE',  ( -9.999999999999998224, 10.00000000000000355, -10.00000000000000000 ) ) ;
#72 = CARTESIAN_POINT ( 'NONE',  ( -10.00000000000000178, -9.999999999999996447, -10.00000000000000000 ) ) ;
#73 = APPROVAL_DATE_TIME ( #78, #88 ) ;
#74 = DIRECTION ( 'NONE',  ( -0.000000000000000000, 1.000000000000000000, -0.000000000000000000 ) ) ;
#75 = COORDINATED_UNIVERSAL_TIME_OFFSET ( 8, 0, .AHEAD. ) ;
#76 = CC_DESIGN_SECURITY_CLASSIFICATION ( #241, ( #305 ) ) ;
#77 = CARTESIAN_POINT ( 'NONE',  ( 10.00000000000000178, -10.00000000000000000, 10.00000000000000000 ) ) ;
#78 = DATE_AND_TIME ( #106, #30 ) ;
#79 = PRODUCT ( 'BK7-LNPBSC-20-633', 'BK7-LNPBSC-20-633', '', ( #177 ) ) ;
#80 = EDGE_CURVE ( 'NONE', #163, #34, #197, .T. ) ;
#81 = ORIENTED_EDGE ( 'NONE', *, *, #61, .F. ) ;
#82 = CC_DESIGN_PERSON_AND_ORGANIZATION_ASSIGNMENT ( #154, #98, ( #241 ) ) ;
#83 = VERTEX_POINT ( 'NONE', #294 ) ;
#84 = ORIENTED_EDGE ( 'NONE', *, *, #188, .T. ) ;
#85 =( GEOMETRIC_REPRESENTATION_CONTEXT ( 3 ) GLOBAL_UNCERTAINTY_ASSIGNED_CONTEXT ( ( #94 ) ) GLOBAL_UNIT_ASSIGNED_CONTEXT ( ( #54, #130, #24 ) ) REPRESENTATION_CONTEXT ( 'NONE', 'WORKASPACE' ) );
#86 = VERTEX_POINT ( 'NONE', #72 ) ;
#87 = DIRECTION ( 'NONE',  ( 2.220446049250313081E-16, 1.000000000000000000, 0.000000000000000000 ) ) ;
#88 = APPROVAL ( #204, 'UNSPECIFIED' ) ;
#89 = CARTESIAN_POINT ( 'NONE',  ( 10.00000000000000000, 10.00000000000000000, -10.00000000000000000 ) ) ;
#90 = CARTESIAN_POINT ( 'NONE',  ( 10.00000000000000000, 10.00000000000000000, 10.00000000000000000 ) ) ;
#91 = CC_DESIGN_APPROVAL ( #119, ( #241 ) ) ;
#92 = LINE ( 'NONE', #120, #149 ) ;
#93 = CARTESIAN_POINT ( 'NONE',  ( 10.00000000000000178, 9.999999999999998224, -10.00000000000000000 ) ) ;
#94 = UNCERTAINTY_MEASURE_WITH_UNIT (LENGTH_MEASURE( 1.000000000000000082E-05 ), #54, 'distance_accuracy_value', 'NONE');
#95 = ADVANCED_BREP_SHAPE_REPRESENTATION ( 'BK7-LNPBSC-20-633', ( #262, #161, #217 ), #85 ) ;
#96 = AXIS2_PLACEMENT_3D ( 'NONE', #68, #260, #46 ) ;
#97 = CARTESIAN_POINT ( 'NONE',  ( -9.999999999999998224, -10.00000000000000000, -10.00000000000000000 ) ) ;
#98 = PERSON_AND_ORGANIZATION_ROLE ( 'classification_officer' ) ;
#99 = CC_DESIGN_PERSON_AND_ORGANIZATION_ASSIGNMENT ( #21, #179, ( #305 ) ) ;
#100 = DIRECTION ( 'NONE',  ( 2.220446049250313081E-16, 1.000000000000000000, 0.000000000000000000 ) ) ;
#101 = PLANE ( 'NONE',  #250 ) ;
#102 = SHAPE_DEFINITION_REPRESENTATION ( #303, #95 ) ;
#103 = DATE_TIME_ROLE ( 'creation_date' ) ;
#104 = LOCAL_TIME ( 10, 1, 37.00000000000000000, #75 ) ;
#105 = LINE ( 'NONE', #220, #40 ) ;
#106 = CALENDAR_DATE ( 2021, 5, 1 ) ;
#107 = APPROVAL_STATUS ( 'not_yet_approved' ) ;
#108 = EDGE_CURVE ( 'NONE', #6, #132, #199, .T. ) ;
#109 = PERSON_AND_ORGANIZATION ( #159, #316 ) ;
#110 = ORIENTED_EDGE ( 'NONE', *, *, #140, .F. ) ;
#111 = ORIENTED_EDGE ( 'NONE', *, *, #203, .T. ) ;
#112 = ORIENTED_EDGE ( 'NONE', *, *, #108, .F. ) ;
#113 = EDGE_LOOP ( 'NONE', ( #277, #210, #136, #84 ) ) ;
#114 = VECTOR ( 'NONE', #311, 1000.000000000000000 ) ;
#115 = DIRECTION ( 'NONE',  ( -0.7071067811865475727, -0.7071067811865474617, 0.000000000000000000 ) ) ;
#116 = FACE_OUTER_BOUND ( 'NONE', #33, .T. ) ;
#117 = EDGE_CURVE ( 'NONE', #34, #7, #271, .T. ) ;
#118 = DIRECTION ( 'NONE',  ( -0.7071067811865475727, -0.7071067811865474617, 0.000000000000000000 ) ) ;
#119 = APPROVAL ( #107, 'UNSPECIFIED' ) ;
#120 = CARTESIAN_POINT ( 'NONE',  ( -10.00000000000000178, -9.999999999999996447, 10.00000000000000000 ) ) ;
#121 = VECTOR ( 'NONE', #2, 1000.000000000000000 ) ;
#122 = DIRECTION ( 'NONE',  ( -0.000000000000000000, 0.000000000000000000, -1.000000000000000000 ) ) ;
#123 = ADVANCED_FACE ( 'NONE', ( #321 ), #101, .F. ) ;
#124 = CARTESIAN_POINT ( 'NONE',  ( 10.00000000000000000, 10.00000000000000000, -10.00000000000000000 ) ) ;
#125 = PERSON_AND_ORGANIZATION ( #159, #316 ) ;
#126 = CC_DESIGN_APPROVAL ( #67, ( #128 ) ) ;
#127 = PLANE ( 'NONE',  #189 ) ;
#128 = PRODUCT_DEFINITION ( 'UNKNOWN', '', #305, #216 ) ;
#129 = DIRECTION ( 'NONE',  ( -0.000000000000000000, 0.000000000000000000, -1.000000000000000000 ) ) ;
#130 =( NAMED_UNIT ( * ) PLANE_ANGLE_UNIT ( ) SI_UNIT ( $, .RADIAN. ) );
#131 = DIRECTION ( 'NONE',  ( 0.000000000000000000, -0.000000000000000000, 1.000000000000000000 ) ) ;
#132 = VERTEX_POINT ( 'NONE', #213 ) ;
#133 = ADVANCED_FACE ( 'NONE', ( #284 ), #259, .F. ) ;
#134 = ORIENTED_EDGE ( 'NONE', *, *, #17, .T. ) ;
#135 = AXIS2_PLACEMENT_3D ( 'NONE', #168, #313, #39 ) ;
#136 = ORIENTED_EDGE ( 'NONE', *, *, #226, .T. ) ;
#137 = ORIENTED_EDGE ( 'NONE', *, *, #208, .F. ) ;
#138 = LINE ( 'NONE', #236, #165 ) ;
#139 = DIRECTION ( 'NONE',  ( -0.000000000000000000, 0.000000000000000000, 1.000000000000000000 ) ) ;
#140 = EDGE_CURVE ( 'NONE', #83, #38, #63, .T. ) ;
#141 = CARTESIAN_POINT ( 'NONE',  ( 10.00000000000000178, 9.999999999999998224, -10.00000000000000000 ) ) ;
#142 = DIRECTION ( 'NONE',  ( 1.000000000000000000, -2.220446049250313081E-16, 0.000000000000000000 ) ) ;
#143 = DIRECTION ( 'NONE',  ( -0.7071067811865474617, 0.7071067811865475727, 0.000000000000000000 ) ) ;
#144 = LOCAL_TIME ( 10, 1, 37.00000000000000000, #147 ) ;
#145 = FACE_OUTER_BOUND ( 'NONE', #251, .T. ) ;
#146 = ORIENTED_EDGE ( 'NONE', *, *, #62, .T. ) ;
#147 = COORDINATED_UNIVERSAL_TIME_OFFSET ( 8, 0, .AHEAD. ) ;
#148 = DIRECTION ( 'NONE',  ( 2.220446049250313081E-16, 1.000000000000000000, 0.000000000000000000 ) ) ;
#149 = VECTOR ( 'NONE', #167, 1000.000000000000000 ) ;
#150 = EDGE_CURVE ( 'NONE', #132, #83, #138, .T. ) ;
#151 = CARTESIAN_POINT ( 'NONE',  ( -9.999999999999998224, 10.00000000000000355, 10.00000000000000000 ) ) ;
#152 = APPROVAL_STATUS ( 'not_yet_approved' ) ;
#153 = LINE ( 'NONE', #317, #299 ) ;
#154 = PERSON_AND_ORGANIZATION ( #159, #316 ) ;
#155 = SECURITY_CLASSIFICATION_LEVEL ( 'unclassified' ) ;
#156 = APPROVAL_ROLE ( '' ) ;
#157 = ADVANCED_FACE ( 'NONE', ( #166 ), #41, .F. ) ;
#158 = ORIENTED_EDGE ( 'NONE', *, *, #203, .F. ) ;
#159 = PERSON ( 'UNSPECIFIED', 'UNSPECIFIED', 'UNSPECIFIED', ('UNSPECIFIED'), ('UNSPECIFIED'), ('UNSPECIFIED') ) ;
#160 = ORIENTED_EDGE ( 'NONE', *, *, #226, .F. ) ;
#161 = MANIFOLD_SOLID_BREP ( '¾µÏ', #55 ) ;
#162 = EDGE_LOOP ( 'NONE', ( #254, #146, #306 ) ) ;
#163 = VERTEX_POINT ( 'NONE', #288 ) ;
#164 = CARTESIAN_POINT ( 'NONE',  ( -9.999999999999998224, -10.00000000000000000, 10.00000000000000000 ) ) ;
#165 = VECTOR ( 'NONE', #115, 1000.000000000000000 ) ;
#166 = FACE_OUTER_BOUND ( 'NONE', #56, .T. ) ;
#167 = DIRECTION ( 'NONE',  ( -0.000000000000000000, 0.000000000000000000, -1.000000000000000000 ) ) ;
#168 = CARTESIAN_POINT ( 'NONE',  ( 0.000000000000000000, 0.000000000000000000, 10.00000000000000000 ) ) ;
#169 = LINE ( 'NONE', #43, #3 ) ;
#170 = ADVANCED_FACE ( 'NONE', ( #42 ), #66, .T. ) ;
#171 = CARTESIAN_POINT ( 'NONE',  ( -10.00000000000000178, -9.999999999999996447, 10.00000000000000000 ) ) ;
#172 = DIRECTION ( 'NONE',  ( -0.000000000000000000, -0.000000000000000000, -1.000000000000000000 ) ) ;
#173 = LINE ( 'NONE', #77, #235 ) ;
#174 = ADVANCED_FACE ( 'NONE', ( #145 ), #263, .F. ) ;
#175 = COORDINATED_UNIVERSAL_TIME_OFFSET ( 8, 0, .AHEAD. ) ;
#176 = ORIENTED_EDGE ( 'NONE', *, *, #230, .T. ) ;
#177 = MECHANICAL_CONTEXT ( 'NONE', #32, 'mechanical' ) ;
#178 = CARTESIAN_POINT ( 'NONE',  ( -9.999999999999998224, -10.00000000000000000, 10.00000000000000000 ) ) ;
#179 = PERSON_AND_ORGANIZATION_ROLE ( 'creator' ) ;
#180 = FACE_OUTER_BOUND ( 'NONE', #252, .T. ) ;
#181 = CALENDAR_DATE ( 2021, 5, 1 ) ;
#182 = PERSON_AND_ORGANIZATION ( #159, #316 ) ;
#183 = ORIENTED_EDGE ( 'NONE', *, *, #315, .F. ) ;
#184 = APPROVAL_PERSON_ORGANIZATION ( #125, #67, #200 ) ;
#185 = CC_DESIGN_DATE_AND_TIME_ASSIGNMENT ( #318, #103, ( #128 ) ) ;
#186 = DATE_AND_TIME ( #181, #232 ) ;
#187 = ORIENTED_EDGE ( 'NONE', *, *, #191, .T. ) ;
#188 = EDGE_CURVE ( 'NONE', #231, #57, #215, .T. ) ;
#189 = AXIS2_PLACEMENT_3D ( 'NONE', #20, #249, #248 ) ;
#190 = ORIENTED_EDGE ( 'NONE', *, *, #9, .F. ) ;
#191 = EDGE_CURVE ( 'NONE', #7, #57, #16, .T. ) ;
#192 = DIRECTION ( 'NONE',  ( -0.000000000000000000, 1.000000000000000000, -0.000000000000000000 ) ) ;
#193 = CARTESIAN_POINT ( 'NONE',  ( 0.000000000000000000, 0.000000000000000000, -10.00000000000000000 ) ) ;
#194 = PLANE ( 'NONE',  #221 ) ;
#195 = CARTESIAN_POINT ( 'NONE',  ( 10.00000000000000000, 10.00000000000000000, 10.00000000000000000 ) ) ;
#196 = AXIS2_PLACEMENT_3D ( 'NONE', #285, #12, #87 ) ;
#197 = LINE ( 'NONE', #298, #207 ) ;
#198 = CALENDAR_DATE ( 2021, 5, 1 ) ;
#199 = LINE ( 'NONE', #296, #70 ) ;
#200 = APPROVAL_ROLE ( '' ) ;
#201 = LINE ( 'NONE', #50, #65 ) ;
#202 = DATE_AND_TIME ( #48, #212 ) ;
#203 = EDGE_CURVE ( 'NONE', #231, #163, #237, .T. ) ;
#204 = APPROVAL_STATUS ( 'not_yet_approved' ) ;
#205 = DIRECTION ( 'NONE',  ( 0.000000000000000000, -0.000000000000000000, 1.000000000000000000 ) ) ;
#206 = ORIENTED_EDGE ( 'NONE', *, *, #58, .T. ) ;
#207 = VECTOR ( 'NONE', #100, 1000.000000000000000 ) ;
#208 = EDGE_CURVE ( 'NONE', #38, #282, #13, .T. ) ;
#209 = ORIENTED_EDGE ( 'NONE', *, *, #208, .T. ) ;
#210 = ORIENTED_EDGE ( 'NONE', *, *, #117, .F. ) ;
#211 = EDGE_LOOP ( 'NONE', ( #281, #134, #187 ) ) ;
#212 = LOCAL_TIME ( 10, 1, 37.00000000000000000, #175 ) ;
#213 = CARTESIAN_POINT ( 'NONE',  ( 10.00000000000000178, 9.999999999999998224, 10.00000000000000000 ) ) ;
#214 = DIRECTION ( 'NONE',  ( 1.000000000000000000, -2.220446049250313081E-16, 0.000000000000000000 ) ) ;
#215 = LINE ( 'NONE', #195, #265 ) ;
#216 = DESIGN_CONTEXT ( 'detailed design', #267, 'design' ) ;
#217 = AXIS2_PLACEMENT_3D ( 'NONE', #29, #4, #31 ) ;
#218 = LINE ( 'NONE', #141, #292 ) ;
#219 = FACE_OUTER_BOUND ( 'NONE', #233, .T. ) ;
#220 = CARTESIAN_POINT ( 'NONE',  ( 10.00000000000000178, 9.999999999999998224, 10.00000000000000000 ) ) ;
#221 = AXIS2_PLACEMENT_3D ( 'NONE', #171, #286, #64 ) ;
#222 = DIRECTION ( 'NONE',  ( -0.7071067811865475727, -0.7071067811865474617, 0.000000000000000000 ) ) ;
#223 = APPROVAL_DATE_TIME ( #245, #67 ) ;
#224 = ORIENTED_EDGE ( 'NONE', *, *, #117, .T. ) ;
#225 = COORDINATED_UNIVERSAL_TIME_OFFSET ( 8, 0, .AHEAD. ) ;
#226 = EDGE_CURVE ( 'NONE', #34, #231, #169, .T. ) ;
#227 = AXIS2_PLACEMENT_3D ( 'NONE', #193, #139, #18 ) ;
#228 = CALENDAR_DATE ( 2021, 5, 1 ) ;
#229 = ORIENTED_EDGE ( 'NONE', *, *, #61, .T. ) ;
#230 = EDGE_CURVE ( 'NONE', #163, #86, #92, .T. ) ;
#231 = VERTEX_POINT ( 'NONE', #90 ) ;
#232 = LOCAL_TIME ( 10, 1, 37.00000000000000000, #225 ) ;
#233 = EDGE_LOOP ( 'NONE', ( #10, #302, #283, #224 ) ) ;
#234 = ADVANCED_FACE ( 'NONE', ( #116 ), #44, .F. ) ;
#235 = VECTOR ( 'NONE', #172, 1000.000000000000000 ) ;
#236 = CARTESIAN_POINT ( 'NONE',  ( 10.00000000000000178, 9.999999999999998224, 10.00000000000000000 ) ) ;
#237 = LINE ( 'NONE', #69, #36 ) ;
#238 = PLANE ( 'NONE',  #278 ) ;
#239 = CC_DESIGN_PERSON_AND_ORGANIZATION_ASSIGNMENT ( #270, #26, ( #79 ) ) ;
#240 = DIRECTION ( 'NONE',  ( -0.7071067811865475727, -0.7071067811865474617, 0.000000000000000000 ) ) ;
#241 = SECURITY_CLASSIFICATION ( '', '', #155 ) ;
#242 = CARTESIAN_POINT ( 'NONE',  ( 10.00000000000000000, 10.00000000000000000, 10.00000000000000000 ) ) ;
#243 = FACE_OUTER_BOUND ( 'NONE', #113, .T. ) ;
#244 = FACE_OUTER_BOUND ( 'NONE', #256, .T. ) ;
#245 = DATE_AND_TIME ( #228, #144 ) ;
#246 = CARTESIAN_POINT ( 'NONE',  ( -9.999999999999998224, 10.00000000000000355, 10.00000000000000000 ) ) ;
#247 = CLOSED_SHELL ( 'NONE', ( #53, #123, #157, #170, #174 ) ) ;
#248 = DIRECTION ( 'NONE',  ( 0.7071067811865475727, 0.7071067811865474617, 0.000000000000000000 ) ) ;
#249 = DIRECTION ( 'NONE',  ( 0.7071067811865474617, -0.7071067811865475727, 0.000000000000000000 ) ) ;
#250 = AXIS2_PLACEMENT_3D ( 'NONE', #178, #27, #131 ) ;
#251 = EDGE_LOOP ( 'NONE', ( #81, #304, #137 ) ) ;
#252 = EDGE_LOOP ( 'NONE', ( #158, #160, #293 ) ) ;
#253 = PRODUCT_RELATED_PRODUCT_CATEGORY ( 'detail', '', ( #79 ) ) ;
#254 = ORIENTED_EDGE ( 'NONE', *, *, #150, .T. ) ;
#255 = APPROVAL_PERSON_ORGANIZATION ( #182, #88, #300 ) ;
#256 = EDGE_LOOP ( 'NONE', ( #229, #110, #307, #206 ) ) ;
#257 = DIRECTION ( 'NONE',  ( -0.000000000000000000, -0.000000000000000000, -1.000000000000000000 ) ) ;
#258 = VECTOR ( 'NONE', #142, 1000.000000000000000 ) ;
#259 = PLANE ( 'NONE',  #196 ) ;
#260 = DIRECTION ( 'NONE',  ( -1.000000000000000000, 0.000000000000000000, 0.000000000000000000 ) ) ;
#261 = EDGE_CURVE ( 'NONE', #282, #280, #218, .T. ) ;
#262 = MANIFOLD_SOLID_BREP ( 'Í¹Ì¨-À', #247 ) ;
#263 = PLANE ( 'NONE',  #227 ) ;
#264 = CARTESIAN_POINT ( 'NONE',  ( -9.999999999999998224, -10.00000000000000000, -10.00000000000000000 ) ) ;
#265 = VECTOR ( 'NONE', #122, 1000.000000000000000 ) ;
#266 = DIRECTION ( 'NONE',  ( -2.220446049250313081E-16, -1.000000000000000000, 0.000000000000000000 ) ) ;
#267 = APPLICATION_CONTEXT ( 'configuration controlled 3d designs of mechanical parts and assemblies' ) ;
#268 = ORIENTED_EDGE ( 'NONE', *, *, #58, .F. ) ;
#269 = ADVANCED_FACE ( 'NONE', ( #219 ), #194, .F. ) ;
#270 = PERSON_AND_ORGANIZATION ( #159, #316 ) ;
#271 = LINE ( 'NONE', #151, #22 ) ;
#272 = CC_DESIGN_PERSON_AND_ORGANIZATION_ASSIGNMENT ( #320, #297, ( #128 ) ) ;
#273 = DIRECTION ( 'NONE',  ( 1.000000000000000000, 0.000000000000000000, 0.000000000000000000 ) ) ;
#274 = PERSON_AND_ORGANIZATION_ROLE ( 'design_supplier' ) ;
#275 = ORIENTED_EDGE ( 'NONE', *, *, #140, .T. ) ;
#276 = PERSON_AND_ORGANIZATION ( #159, #316 ) ;
#277 = ORIENTED_EDGE ( 'NONE', *, *, #191, .F. ) ;
#278 = AXIS2_PLACEMENT_3D ( 'NONE', #242, #266, #314 ) ;
#279 = APPROVAL_DATE_TIME ( #186, #119 ) ;
#280 = VERTEX_POINT ( 'NONE', #93 ) ;
#281 = ORIENTED_EDGE ( 'NONE', *, *, #315, .T. ) ;
#282 = VERTEX_POINT ( 'NONE', #289 ) ;
#283 = ORIENTED_EDGE ( 'NONE', *, *, #80, .T. ) ;
#284 = FACE_OUTER_BOUND ( 'NONE', #211, .T. ) ;
#285 = CARTESIAN_POINT ( 'NONE',  ( 0.000000000000000000, 0.000000000000000000, -10.00000000000000000 ) ) ;
#286 = DIRECTION ( 'NONE',  ( 1.000000000000000000, -2.220446049250313081E-16, 0.000000000000000000 ) ) ;
#287 = AXIS2_PLACEMENT_3D ( 'NONE', #319, #205, #148 ) ;
#288 = CARTESIAN_POINT ( 'NONE',  ( -10.00000000000000178, -9.999999999999996447, 10.00000000000000000 ) ) ;
#289 = CARTESIAN_POINT ( 'NONE',  ( 10.00000000000000178, -10.00000000000000000, -10.00000000000000000 ) ) ;
#290 = CARTESIAN_POINT ( 'NONE',  ( 10.00000000000000000, 10.00000000000000000, 10.00000000000000000 ) ) ;
#291 = ADVANCED_FACE ( 'NONE', ( #243 ), #238, .F. ) ;
#292 = VECTOR ( 'NONE', #192, 1000.000000000000000 ) ;
#293 = ORIENTED_EDGE ( 'NONE', *, *, #80, .F. ) ;
#294 = CARTESIAN_POINT ( 'NONE',  ( -9.999999999999998224, -10.00000000000000000, 10.00000000000000000 ) ) ;
#295 = COORDINATED_UNIVERSAL_TIME_OFFSET ( 8, 0, .AHEAD. ) ;
#296 = CARTESIAN_POINT ( 'NONE',  ( 10.00000000000000178, 9.999999999999998224, 10.00000000000000000 ) ) ;
#297 = PERSON_AND_ORGANIZATION_ROLE ( 'creator' ) ;
#298 = CARTESIAN_POINT ( 'NONE',  ( -10.00000000000000178, -9.999999999999996447, 10.00000000000000000 ) ) ;
#299 = VECTOR ( 'NONE', #273, 1000.000000000000000 ) ;
#300 = APPROVAL_ROLE ( '' ) ;
#301 = CARTESIAN_POINT ( 'NONE',  ( 10.00000000000000178, -10.00000000000000000, 10.00000000000000000 ) ) ;
#302 = ORIENTED_EDGE ( 'NONE', *, *, #230, .F. ) ;
#303 = PRODUCT_DEFINITION_SHAPE ( 'NONE', 'NONE',  #128 ) ;
#304 = ORIENTED_EDGE ( 'NONE', *, *, #261, .F. ) ;
#305 = PRODUCT_DEFINITION_FORMATION_WITH_SPECIFIED_SOURCE ( 'ANY', '', #79, .NOT_KNOWN. ) ;
#306 = ORIENTED_EDGE ( 'NONE', *, *, #108, .T. ) ;
#307 = ORIENTED_EDGE ( 'NONE', *, *, #150, .F. ) ;
#308 = ORIENTED_EDGE ( 'NONE', *, *, #261, .T. ) ;
#309 = AXIS2_PLACEMENT_3D ( 'NONE', #290, #143, #310 ) ;
#310 = DIRECTION ( 'NONE',  ( 0.7071067811865475727, 0.7071067811865474617, 0.000000000000000000 ) ) ;
#311 = DIRECTION ( 'NONE',  ( 1.000000000000000000, 0.000000000000000000, 0.000000000000000000 ) ) ;
#312 = CC_DESIGN_APPROVAL ( #88, ( #305 ) ) ;
#313 = DIRECTION ( 'NONE',  ( -0.000000000000000000, 0.000000000000000000, 1.000000000000000000 ) ) ;
#314 = DIRECTION ( 'NONE',  ( 0.000000000000000000, 0.000000000000000000, 1.000000000000000000 ) ) ;
#315 = EDGE_CURVE ( 'NONE', #57, #86, #14, .T. ) ;
#316 = ORGANIZATION ( 'UNSPECIFIED', 'UNSPECIFIED', '' ) ;
#317 = CARTESIAN_POINT ( 'NONE',  ( -9.999999999999998224, -10.00000000000000000, 10.00000000000000000 ) ) ;
#318 = DATE_AND_TIME ( #198, #104 ) ;
#319 = CARTESIAN_POINT ( 'NONE',  ( 0.000000000000000000, 0.000000000000000000, 10.00000000000000000 ) ) ;
#320 = PERSON_AND_ORGANIZATION ( #159, #316 ) ;
#321 = FACE_OUTER_BOUND ( 'NONE', #60, .T. ) ;
ENDSEC;
END-ISO-10303-21;
